  0
SECTION
  2
HEADER
  9
$ACADVER
  1
AC1015
  9
$ACADMAINTVER
 70
     6
  9
$DWGCODEPAGE
  3
ANSI_1254
  9
$INSBASE
 10
0.0
 20
0.0
 30
0.0
  9
$EXTMIN
 10
0.0
 20
0.0
 30
0.0
  9
$EXTMAX
 10
279.4
 20
215.9
 30
0.0
  9
$LIMMIN
 10
0.0
 20
0.0
  9
$LIMMAX
 10
279.4
 20
215.9
  9
$ORTHOMODE
 70
     0
  9
$REGENMODE
 70
     1
  9
$FILLMODE
 70
     1
  9
$QTEXTMODE
 70
     0
  9
$MIRRTEXT
 70
     1
  9
$LTSCALE
 40
1.0
  9
$ATTMODE
 70
     1
  9
$TEXTSIZE
 40
3.5
  9
$TRACEWID
 40
1.0
  9
$TEXTSTYLE
  7
Standard
  9
$CLAYER
  8
0
  9
$CELTYPE
  6
ByLayer
  9
$CECOLOR
 62
   256
  9
$CELTSCALE
 40
1.0
  9
$DISPSILH
 70
     0
  9
$DIMSCALE
 40
1.0
  9
$DIMASZ
 40
3.5
  9
$DIMEXO
 40
1.0
  9
$DIMDLI
 40
3.75
  9
$DIMRND
 40
0.0
  9
$DIMDLE
 40
0.0
  9
$DIMEXE
 40
1.0
  9
$DIMTP
 40
0.0
  9
$DIMTM
 40
0.0
  9
$DIMTXT
 40
3.5
  9
$DIMCEN
 40
2.5
  9
$DIMTSZ
 40
0.0
  9
$DIMTOL
 70
     0
  9
$DIMLIM
 70
     0
  9
$DIMTIH
 70
     1
  9
$DIMTOH
 70
     1
  9
$DIMSE1
 70
     0
  9
$DIMSE2
 70
     0
  9
$DIMTAD
 70
     1
  9
$DIMZIN
 70
     0
  9
$DIMBLK
  1

  9
$DIMASO
 70
     1
  9
$DIMSHO
 70
     1
  9
$DIMPOST
  1

  9
$DIMAPOST
  1

  9
$DIMALT
 70
     0
  9
$DIMALTD
 70
     3
  9
$DIMALTF
 40
0.0393700787
  9
$DIMLFAC
 40
1.0
  9
$DIMTOFL
 70
     1
  9
$DIMTVP
 40
0.0
  9
$DIMTIX
 70
     0
  9
$DIMSOXD
 70
     0
  9
$DIMSAH
 70
     0
  9
$DIMBLK1
  1

  9
$DIMBLK2
  1

  9
$DIMSTYLE
  2
ISO-25
  9
$DIMCLRD
 70
     0
  9
$DIMCLRE
 70
     0
  9
$DIMCLRT
 70
     0
  9
$DIMTFAC
 40
1.0
  9
$DIMGAP
 40
1.524
  9
$DIMJUST
 70
     0
  9
$DIMSD1
 70
     0
  9
$DIMSD2
 70
     0
  9
$DIMTOLJ
 70
     0
  9
$DIMTZIN
 70
     0
  9
$DIMALTZ
 70
     0
  9
$DIMALTTZ
 70
     0
  9
$DIMUPT
 70
     0
  9
$DIMDEC
 70
     2
  9
$DIMTDEC
 70
     2
  9
$DIMALTU
 70
     2
  9
$DIMALTTD
 70
     3
  9
$DIMTXSTY
  7
Standard
  9
$DIMAUNIT
 70
     0
  9
$DIMADEC
 70
     2
  9
$DIMALTRND
 40
0.0
  9
$DIMAZIN
 70
     0
  9
$DIMDSEP
 70
    44
  9
$DIMATFIT
 70
     3
  9
$DIMFRAC
 70
     0
  9
$DIMLDRBLK
  1

  9
$DIMLUNIT
 70
     2
  9
$DIMLWD
 70
    -2
  9
$DIMLWE
 70
    -2
  9
$DIMTMOVE
 70
     0
  9
$LUNITS
 70
     2
  9
$LUPREC
 70
     2
  9
$SKETCHINC
 40
1.0
  9
$FILLETRAD
 40
10.0
  9
$AUNITS
 70
     0
  9
$AUPREC
 70
     2
  9
$MENU
  1
.
  9
$ELEVATION
 40
0.0
  9
$PELEVATION
 40
0.0
  9
$THICKNESS
 40
0.0
  9
$LIMCHECK
 70
     0
  9
$CHAMFERA
 40
0.0
  9
$CHAMFERB
 40
0.0
  9
$CHAMFERC
 40
0.0
  9
$CHAMFERD
 40
0.0
  9
$SKPOLY
 70
     0
  9
$TDCREATE
 40
2459935.7005186
  9
$TDUCREATE
 40
2459935.5755186
  9
$TDUPDATE
 40
2459935.700518785
  9
$TDUUPDATE
 40
2459935.575518785
  9
$TDINDWG
 40
0.0000000116
  9
$TDUSRTIMER
 40
0.0000000116
  9
$USRTIMER
 70
     1
  9
$ANGBASE
 50
0.0
  9
$ANGDIR
 70
     0
  9
$PDMODE
 70
     0
  9
$PDSIZE
 40
-1.0
  9
$PLINEWID
 40
0.0
  9
$SPLFRAME
 70
     0
  9
$SPLINETYPE
 70
     6
  9
$SPLINESEGS
 70
     8
  9
$HANDSEED
  5
D2
  9
$SURFTAB1
 70
     6
  9
$SURFTAB2
 70
     6
  9
$SURFTYPE
 70
     6
  9
$SURFU
 70
     6
  9
$SURFV
 70
     6
  9
$UCSBASE
  2

  9
$UCSNAME
  2

  9
$UCSORG
 10
0.0
 20
0.0
 30
0.0
  9
$UCSXDIR
 10
1.0
 20
0.0
 30
0.0
  9
$UCSYDIR
 10
0.0
 20
1.0
 30
0.0
  9
$UCSORTHOREF
  2

  9
$UCSORTHOVIEW
 70
     0
  9
$UCSORGTOP
 10
0.0
 20
0.0
 30
0.0
  9
$UCSORGBOTTOM
 10
0.0
 20
0.0
 30
0.0
  9
$UCSORGLEFT
 10
0.0
 20
0.0
 30
0.0
  9
$UCSORGRIGHT
 10
0.0
 20
0.0
 30
0.0
  9
$UCSORGFRONT
 10
0.0
 20
0.0
 30
0.0
  9
$UCSORGBACK
 10
0.0
 20
0.0
 30
0.0
  9
$PUCSBASE
  2

  9
$PUCSNAME
  2

  9
$PUCSORG
 10
0.0
 20
0.0
 30
0.0
  9
$PUCSXDIR
 10
1.0
 20
0.0
 30
0.0
  9
$PUCSYDIR
 10
0.0
 20
1.0
 30
0.0
  9
$PUCSORTHOREF
  2

  9
$PUCSORTHOVIEW
 70
     0
  9
$PUCSORGTOP
 10
0.0
 20
0.0
 30
0.0
  9
$PUCSORGBOTTOM
 10
0.0
 20
0.0
 30
0.0
  9
$PUCSORGLEFT
 10
0.0
 20
0.0
 30
0.0
  9
$PUCSORGRIGHT
 10
0.0
 20
0.0
 30
0.0
  9
$PUCSORGFRONT
 10
0.0
 20
0.0
 30
0.0
  9
$PUCSORGBACK
 10
0.0
 20
0.0
 30
0.0
  9
$USERI1
 70
     0
  9
$USERI2
 70
     0
  9
$USERI3
 70
     0
  9
$USERI4
 70
     0
  9
$USERI5
 70
     0
  9
$USERR1
 40
0.0
  9
$USERR2
 40
0.0
  9
$USERR3
 40
0.0
  9
$USERR4
 40
0.0
  9
$USERR5
 40
0.0
  9
$WORLDVIEW
 70
     1
  9
$SHADEDGE
 70
     3
  9
$SHADEDIF
 70
    70
  9
$TILEMODE
 70
     1
  9
$MAXACTVP
 70
    64
  9
$PINSBASE
 10
0.0
 20
0.0
 30
0.0
  9
$PLIMCHECK
 70
     0
  9
$PEXTMIN
 10
1.0000000000E+20
 20
1.0000000000E+20
 30
1.0000000000E+20
  9
$PEXTMAX
 10
-1.0000000000E+20
 20
-1.0000000000E+20
 30
-1.0000000000E+20
  9
$PLIMMIN
 10
0.0
 20
0.0
  9
$PLIMMAX
 10
420.0
 20
297.0
  9
$UNITMODE
 70
     0
  9
$VISRETAIN
 70
     1
  9
$PLINEGEN
 70
     0
  9
$PSLTSCALE
 70
     1
  9
$TREEDEPTH
 70
  3020
  9
$CMLSTYLE
  2
Standard
  9
$CMLJUST
 70
     0
  9
$CMLSCALE
 40
20.0
  9
$PROXYGRAPHICS
 70
     1
  9
$MEASUREMENT
 70
     1
  9
$CELWEIGHT
370
    -1
  9
$ENDCAPS
280
     0
  9
$JOINSTYLE
280
     0
  9
$LWDISPLAY
290
     1
  9
$INSUNITS
 70
     4
  9
$HYPERLINKBASE
  1

  9
$STYLESHEET
  1

  9
$XEDIT
290
     1
  9
$CEPSNTYPE
380
     0
  9
$PSTYLEMODE
290
     1
  9
$FINGERPRINTGUID
  2
{5880e5a2-dadb-4290-a0c9-954e43aae2a1}
  9
$VERSIONGUID
  2
{FAEB1C32-E019-11D5-929B-00C0DF256EC4}
  9
$EXTNAMES
290
     1
  9
$PSVPSCALE
 40
0.0
  9
$OLESTARTUP
290
     0
  0
ENDSEC
  0
SECTION
  2
CLASSES
  0
CLASS
  1
ACDBDICTIONARYWDFLT
  2
AcDbDictionaryWithDefault
  3
ObjectDBX Classes
 90
        0
280
     0
281
     0
  0
CLASS
  1
VISUALSTYLE
  2
AcDbVisualStyle
  3
ObjectDBX Classes
 90
     4095
280
     0
281
     0
  0
CLASS
  1
MATERIAL
  2
AcDbMaterial
  3
ObjectDBX Classes
 90
     1153
280
     0
281
     0
  0
CLASS
  1
SCALE
  2
AcDbScale
  3
ObjectDBX Classes
 90
     1153
280
     0
281
     0
  0
CLASS
  1
TABLESTYLE
  2
AcDbTableStyle
  3
ObjectDBX Classes
 90
     4095
280
     0
281
     0
  0
CLASS
  1
MLEADERSTYLE
  2
AcDbMLeaderStyle
  3
ACDB_MLEADERSTYLE_CLASS
 90
     4095
280
     0
281
     0
  0
CLASS
  1
SUN
  2
AcDbSun
  3
SCENEOE
 90
     1153
280
     0
281
     0
  0
CLASS
  1
ACDBPLACEHOLDER
  2
AcDbPlaceHolder
  3
ObjectDBX Classes
 90
        0
280
     0
281
     0
  0
CLASS
  1
LAYOUT
  2
AcDbLayout
  3
ObjectDBX Classes
 90
        0
280
     0
281
     0
  0
ENDSEC
  0
SECTION
  2
TABLES
  0
TABLE
  2
VPORT
  5
8
330
0
100
AcDbSymbolTable
 70
     1
  0
VPORT
  5
29
330
8
100
AcDbSymbolTableRecord
100
AcDbViewportTableRecord
  2
*Active
 70
     0
 10
0.0
 20
0.0
 11
1.0
 21
1.0
 12
139.7
 22
107.95
 13
0.0
 23
0.0
 14
10.0
 24
10.0
 15
10.0
 25
10.0
 16
0.0
 26
0.0
 36
1.0
 17
0.0
 27
0.0
 37
0.0
 40
215.9
 41
1.2941176471
 42
50.0
 43
0.0
 44
0.0
 50
0.0
 51
0.0
 71
     0
 72
  2000
 73
     1
 74
     3
 75
     0
 76
     0
 77
     0
 78
     0
281
     0
 65
     1
110
0.0
120
0.0
130
0.0
111
1.0
121
0.0
131
0.0
112
0.0
122
1.0
132
0.0
 79
     0
146
0.0
  0
ENDTAB
  0
TABLE
  2
LTYPE
  5
5
330
0
100
AcDbSymbolTable
 70
     6
  0
LTYPE
  5
14
330
5
100
AcDbSymbolTableRecord
100
AcDbLinetypeTableRecord
  2
ByBlock
 70
     0
  3

 72
    65
 73
     0
 40
0.0
  0
LTYPE
  5
15
330
5
100
AcDbSymbolTableRecord
100
AcDbLinetypeTableRecord
  2
ByLayer
 70
     0
  3

 72
    65
 73
     0
 40
0.0
  0
LTYPE
  5
16
330
5
100
AcDbSymbolTableRecord
100
AcDbLinetypeTableRecord
  2
Continuous
 70
     0
  3
Solid line
 72
    65
 73
     0
 40
0.0
  0
LTYPE
  5
6E
330
5
100
AcDbSymbolTableRecord
100
AcDbLinetypeTableRecord
  2
HIDDEN
 70
     0
  3
Hidden __ __ __ __ __ __ __ __ __ __ __ __ __ __
 72
    65
 73
     2
 40
1.905
 49
1.27
 74
     0
 49
-0.635
 74
     0
  0
LTYPE
  5
6F
330
5
100
AcDbSymbolTableRecord
100
AcDbLinetypeTableRecord
  2
PHANTOM
 70
     0
  3
Phantom ______  __  __  ______  __  __  ______
 72
    65
 73
     6
 40
12.7
 49
6.35
 74
     0
 49
-1.27
 74
     0
 49
1.27
 74
     0
 49
-1.27
 74
     0
 49
1.27
 74
     0
 49
-1.27
 74
     0
  0
LTYPE
  5
70
330
5
100
AcDbSymbolTableRecord
100
AcDbLinetypeTableRecord
  2
CENTER
 70
     0
  3
Center ____ _ ____ _ ____ _ ____ _ ____ _ ____
 72
    65
 73
     4
 40
10.16
 49
6.35
 74
     0
 49
-1.27
 74
     0
 49
1.27
 74
     0
 49
-1.27
 74
     0
  0
LTYPE
  5
71
330
5
100
AcDbSymbolTableRecord
100
AcDbLinetypeTableRecord
  2
CENTERX2
 70
     0
  3
Center (2x) ________  __  ________  __  _____
 72
    65
 73
     4
 40
20.32
 49
12.7
 74
     0
 49
-2.54
 74
     0
 49
2.54
 74
     0
 49
-2.54
 74
     0
  0
LTYPE
  5
72
330
5
100
AcDbSymbolTableRecord
100
AcDbLinetypeTableRecord
  2
DOT2
 70
     0
  3
Dot (.5x) ........................................
 72
    65
 73
     2
 40
0.635
 49
0.0
 74
     0
 49
-0.635
 74
     0
  0
ENDTAB
  0
TABLE
  2
LAYER
  5
2
330
0
100
AcDbSymbolTable
 70
    17
  0
LAYER
  5
10
330
2
100
AcDbSymbolTableRecord
100
AcDbLayerTableRecord
  2
0
 70
     0
 62
     7
  6
Continuous
370
    -3
390
F
  0
LAYER
  5
73
330
2
100
AcDbSymbolTableRecord
100
AcDbLayerTableRecord
  2
FORMAT
 70
     0
 62
     7
  6
Continuous
370
    -3
390
F
  0
LAYER
  5
74
330
2
100
AcDbSymbolTableRecord
100
AcDbLayerTableRecord
  2
YARDIMCI_GEOMETRI
 70
     0
 62
    -6
  6
Continuous
290
     0
370
    -3
390
F
  0
LAYER
  5
75
330
2
100
AcDbSymbolTableRecord
100
AcDbLayerTableRecord
  2
SAYFA_CERCEVESI
 70
     0
 62
     7
  6
Continuous
370
    25
390
F
  0
LAYER
  5
76
330
2
100
AcDbSymbolTableRecord
100
AcDbLayerTableRecord
  2
ANTET
 70
     0
 62
     7
  6
Continuous
370
    -3
390
F
  0
LAYER
  5
77
330
2
100
AcDbSymbolTableRecord
100
AcDbLayerTableRecord
  2
OLCU
 70
     0
 62
   150
  6
Continuous
370
    -3
390
F
  0
LAYER
  5
78
330
2
100
AcDbSymbolTableRecord
100
AcDbLayerTableRecord
  2
METIN
 70
     0
 62
    96
  6
Continuous
370
    -3
390
F
  0
LAYER
  5
79
330
2
100
AcDbSymbolTableRecord
100
AcDbLayerTableRecord
  2
BALON
 70
     0
 62
     5
  6
Continuous
370
    -3
390
F
  0
LAYER
  5
7A
330
2
100
AcDbSymbolTableRecord
100
AcDbLayerTableRecord
  2
VURGU
 70
     0
 62
     7
  6
Continuous
370
    -3
390
F
  0
LAYER
  5
7B
330
2
100
AcDbSymbolTableRecord
100
AcDbLayerTableRecord
  2
SILIK
 70
     0
 62
     7
  6
Continuous
370
    -3
390
F
  0
LAYER
  5
7C
330
2
100
AcDbSymbolTableRecord
100
AcDbLayerTableRecord
  2
MODEL
 70
     0
 62
     7
  6
Continuous
370
    -3
390
F
  0
LAYER
  5
7D
330
2
100
AcDbSymbolTableRecord
100
AcDbLayerTableRecord
  2
DETAYLANDıRMA
 70
     0
 62
   190
  6
Continuous
370
    -3
390
F
  0
LAYER
  5
7E
330
2
100
AcDbSymbolTableRecord
100
AcDbLayerTableRecord
  2
TOLERANS
 70
     0
 62
   230
  6
Continuous
370
    -3
390
F
  0
LAYER
  5
7F
330
2
100
AcDbSymbolTableRecord
100
AcDbLayerTableRecord
  2
MERKEZ_CIZGILERI
 70
     0
 62
    30
  6
Continuous
370
    -3
390
F
  0
LAYER
  5
80
330
2
100
AcDbSymbolTableRecord
100
AcDbLayerTableRecord
  2
KESIT-DETAY_CIZGILERI
 70
     0
 62
     7
  6
Continuous
370
    -3
390
F
  0
LAYER
  5
81
330
2
100
AcDbSymbolTableRecord
100
AcDbLayerTableRecord
  2
\U+041E\U+0421\U+0415\U+0412\U+042B\U+0415
 70
     0
 62
     7
  6
Continuous
370
    -3
390
F
  0
LAYER
  5
82
330
2
100
AcDbSymbolTableRecord
100
AcDbLayerTableRecord
  2
\U+0412\U+041E\U+0414\U+042F\U+041D\U+042B\U+0415_\U+0417\U+041D\U+0410\U+041A\U+0418
 70
     0
 62
    11
  6
Continuous
370
    -3
390
F
  0
ENDTAB
  0
TABLE
  2
STYLE
  5
3
330
0
100
AcDbSymbolTable
 70
     1
  0
STYLE
  5
11
330
3
100
AcDbSymbolTableRecord
100
AcDbTextStyleTableRecord
  2
Standard
 70
     0
 40
0.0
 41
1.0
 50
0.0
 71
     0
 42
3.5
  3
txt
  4

  0
ENDTAB
  0
TABLE
  2
VIEW
  5
6
330
0
100
AcDbSymbolTable
 70
     0
  0
ENDTAB
  0
TABLE
  2
UCS
  5
7
330
0
100
AcDbSymbolTable
 70
     0
  0
ENDTAB
  0
TABLE
  2
APPID
  5
9
330
0
100
AcDbSymbolTable
 70
     1
  0
APPID
  5
12
330
9
100
AcDbSymbolTableRecord
100
AcDbRegAppTableRecord
  2
ACAD
 70
     0
  0
ENDTAB
  0
TABLE
  2
DIMSTYLE
  5
A
330
0
100
AcDbSymbolTable
 70
     1
100
AcDbDimStyleTable
  0
DIMSTYLE
105
27
330
A
100
AcDbSymbolTableRecord
100
AcDbDimStyleTableRecord
  2
ISO-25
 70
     0
 41
2.5
 42
0.625
 43
3.75
 44
1.25
 73
     0
 74
     0
 77
     1
 78
     8
140
2.5
141
2.5
143
0.0393700787
147
0.625
171
     3
172
     1
178
     0
271
     2
272
     2
274
     3
278
    44
283
     0
284
     8
340
11
  0
ENDTAB
  0
TABLE
  2
BLOCK_RECORD
  5
1
330
0
100
AcDbSymbolTable
 70
     3
  0
BLOCK_RECORD
  5
1F
330
1
100
AcDbSymbolTableRecord
100
AcDbBlockTableRecord
  2
*Model_Space
340
22
  0
BLOCK_RECORD
  5
1B
330
1
100
AcDbSymbolTableRecord
100
AcDbBlockTableRecord
  2
*Paper_Space
340
1E
  0
BLOCK_RECORD
  5
23
330
1
100
AcDbSymbolTableRecord
100
AcDbBlockTableRecord
  2
*Paper_Space0
340
26
  0
BLOCK_RECORD
  5
88
330
1
100
AcDbSymbolTableRecord
100
AcDbBlockTableRecord
  2
SW_CENTERMARKSYMBOL_0
340
0
102
{BLKREFS
331
93
102
}
  0
BLOCK_RECORD
  5
BB
330
1
100
AcDbSymbolTableRecord
100
AcDbBlockTableRecord
  2
SW_CENTERMARKSYMBOL_1
340
0
102
{BLKREFS
331
C6
102
}
  0
ENDTAB
  0
ENDSEC
  0
SECTION
  2
BLOCKS
  0
BLOCK
  5
20
330
1F
100
AcDbEntity
  8
0
100
AcDbBlockBegin
  2
*Model_Space
 70
     0
 10
0.0
 20
0.0
 30
0.0
  3
*Model_Space
  1

  0
ENDBLK
  5
21
330
1F
100
AcDbEntity
  8
0
100
AcDbBlockEnd
  0
BLOCK
  5
1C
330
1B
100
AcDbEntity
 67
     1
  8
0
100
AcDbBlockBegin
  2
*Paper_Space
 70
     0
 10
0.0
 20
0.0
 30
0.0
  3
*Paper_Space
  1

  0
ENDBLK
  5
1D
330
1B
100
AcDbEntity
 67
     1
  8
0
100
AcDbBlockEnd
  0
BLOCK
  5
24
330
23
100
AcDbEntity
  8
0
100
AcDbBlockBegin
  2
*Paper_Space0
 70
     0
 10
0.0
 20
0.0
 30
0.0
  3
*Paper_Space0
  1

  0
ENDBLK
  5
25
330
23
100
AcDbEntity
  8
0
100
AcDbBlockEnd
  0
BLOCK
  5
89
330
88
100
AcDbEntity
  8
0
100
AcDbBlockBegin
  2
SW_CENTERMARKSYMBOL_0
 70
     0
 10
0.0
 20
0.0
 30
0.0
  3
SW_CENTERMARKSYMBOL_0
  1

  0
LINE
  5
8B
330
88
100
AcDbEntity
  8
FORMAT
 62
     0
100
AcDbLine
 10
0.0
 20
0.0
 30
0.0
 11
0.0
 21
2.5
 31
0.0
  0
LINE
  5
8C
330
88
100
AcDbEntity
  8
FORMAT
 62
     0
100
AcDbLine
 10
0.0
 20
0.0
 30
0.0
 11
-2.5
 21
0.0
 31
0.0
  0
LINE
  5
8D
330
88
100
AcDbEntity
  8
FORMAT
 62
     0
100
AcDbLine
 10
0.0
 20
0.0
 30
0.0
 11
0.0
 21
-2.5
 31
0.0
  0
LINE
  5
8E
330
88
100
AcDbEntity
  8
FORMAT
 62
     0
100
AcDbLine
 10
0.0
 20
0.0
 30
0.0
 11
2.5
 21
0.0
 31
0.0
  0
LINE
  5
8F
330
88
100
AcDbEntity
  8
FORMAT
 62
     0
100
AcDbLine
 10
0.0
 20
5.0
 30
0.0
 11
0.0
 21
65.0
 31
0.0
  0
LINE
  5
90
330
88
100
AcDbEntity
  8
FORMAT
 62
     0
100
AcDbLine
 10
-5.0
 20
0.0
 30
0.0
 11
-65.0
 21
0.0
 31
0.0
  0
LINE
  5
91
330
88
100
AcDbEntity
  8
FORMAT
 62
     0
100
AcDbLine
 10
0.0
 20
-5.0
 30
0.0
 11
0.0
 21
-65.0
 31
0.0
  0
LINE
  5
92
330
88
100
AcDbEntity
  8
FORMAT
 62
     0
100
AcDbLine
 10
5.0
 20
0.0
 30
0.0
 11
65.0
 21
0.0
 31
0.0
  0
ENDBLK
  5
8A
330
88
100
AcDbEntity
  8
0
100
AcDbBlockEnd
  0
BLOCK
  5
BC
330
BB
100
AcDbEntity
  8
0
100
AcDbBlockBegin
  2
SW_CENTERMARKSYMBOL_1
 70
     0
 10
0.0
 20
0.0
 30
0.0
  3
SW_CENTERMARKSYMBOL_1
  1

  0
LINE
  5
BE
330
BB
100
AcDbEntity
  8
FORMAT
 62
     0
100
AcDbLine
 10
0.0
 20
0.0
 30
0.0
 11
0.0
 21
2.5
 31
0.0
  0
LINE
  5
BF
330
BB
100
AcDbEntity
  8
FORMAT
 62
     0
100
AcDbLine
 10
0.0
 20
0.0
 30
0.0
 11
-2.5
 21
0.0
 31
0.0
  0
LINE
  5
C0
330
BB
100
AcDbEntity
  8
FORMAT
 62
     0
100
AcDbLine
 10
0.0
 20
0.0
 30
0.0
 11
0.0
 21
-2.5
 31
0.0
  0
LINE
  5
C1
330
BB
100
AcDbEntity
  8
FORMAT
 62
     0
100
AcDbLine
 10
0.0
 20
0.0
 30
0.0
 11
2.5
 21
0.0
 31
0.0
  0
LINE
  5
C2
330
BB
100
AcDbEntity
  8
FORMAT
 62
     0
100
AcDbLine
 10
0.0
 20
5.0
 30
0.0
 11
0.0
 21
65.0
 31
0.0
  0
LINE
  5
C3
330
BB
100
AcDbEntity
  8
FORMAT
 62
     0
100
AcDbLine
 10
-5.0
 20
0.0
 30
0.0
 11
-65.0
 21
0.0
 31
0.0
  0
LINE
  5
C4
330
BB
100
AcDbEntity
  8
FORMAT
 62
     0
100
AcDbLine
 10
0.0
 20
-5.0
 30
0.0
 11
0.0
 21
-65.0
 31
0.0
  0
LINE
  5
C5
330
BB
100
AcDbEntity
  8
FORMAT
 62
     0
100
AcDbLine
 10
5.0
 20
0.0
 30
0.0
 11
65.0
 21
0.0
 31
0.0
  0
ENDBLK
  5
BD
330
BB
100
AcDbEntity
  8
0
100
AcDbBlockEnd
  0
ENDSEC
  0
SECTION
  2
ENTITIES
  0
LINE
  5
83
330
1F
100
AcDbEntity
  8
0
  6
Continuous
 62
     7
370
    25
100
AcDbLine
 10
80.2608321164
 20
42.6121701826
 30
0.0
 11
258.2608321164
 21
42.6121701826
 31
0.0
  0
LINE
  5
84
330
1F
100
AcDbEntity
  8
0
  6
Continuous
 62
     7
370
    25
100
AcDbLine
 10
258.2608321164
 20
167.6121701826
 30
0.0
 11
80.2608321164
 21
167.6121701826
 31
0.0
  0
CIRCLE
  5
85
330
1F
100
AcDbEntity
  8
0
  6
Continuous
 62
     7
370
    25
100
AcDbCircle
 10
80.2608321164
 20
105.1121701826
 30
0.0
 40
55.10000000000002
  0
CIRCLE
  5
86
330
1F
100
AcDbEntity
  8
0
  6
Continuous
 62
     7
370
    25
100
AcDbCircle
 10
80.2608321164
 20
105.1121701826
 30
0.0
 40
62.5
  0
LINE
  5
87
330
1F
100
AcDbEntity
  8
0
  6
Continuous
 62
     7
370
    25
100
AcDbLine
 10
258.2608321164
 20
167.6121701826
 30
0.0
 11
258.2608321164
 21
42.6121701826
 31
0.0
  0
INSERT
  5
93
330
1F
100
AcDbEntity
  8
FORMAT
100
AcDbBlockReference
  2
SW_CENTERMARKSYMBOL_0
 10
80.2608321164
 20
105.1121701826
 30
0.0
  0
LINE
  5
94
330
1F
100
AcDbEntity
  8
0
  6
Continuous
 62
     7
370
    25
100
AcDbLine
 10
142.7608321164
 20
493.5838390522
 30
0.0
 11
142.7608321164
 21
609.0838390522
 31
0.0
  0
LINE
  5
95
330
1F
100
AcDbEntity
  8
0
  6
Continuous
 62
     7
370
    25
100
AcDbLine
 10
142.7608321164
 20
253.0838390522
 30
0.0
 11
142.7608321164
 21
368.5838390522
 31
0.0
  0
LINE
  5
96
330
1F
100
AcDbEntity
  8
0
  6
Continuous
 62
     7
370
    25
100
AcDbLine
 10
17.7608321164
 20
609.0838390522
 30
0.0
 11
17.7608321164
 21
253.0838390522
 31
0.0
  0
LINE
  5
97
330
1F
100
AcDbEntity
  8
0
  6
Continuous
 62
     7
370
    25
100
AcDbLine
 10
142.7608321164
 20
368.5838390522
 30
0.0
 11
258.2608321164
 21
368.5838390522
 31
0.0
  0
LINE
  5
98
330
1F
100
AcDbEntity
  8
0
  6
Continuous
 62
     7
370
    25
100
AcDbLine
 10
258.2608321164
 20
493.5838390522
 30
0.0
 11
142.7608321164
 21
493.5838390522
 31
0.0
  0
LINE
  5
99
330
1F
100
AcDbEntity
  8
0
  6
Continuous
 62
     7
370
    25
100
AcDbLine
 10
142.7608321164
 20
493.5838390522
 30
0.0
 11
80.2608321164
 21
431.0838390522
 31
0.0
  0
LINE
  5
9A
330
1F
100
AcDbEntity
  8
0
  6
Continuous
 62
     7
370
    25
100
AcDbLine
 10
80.2608321164
 20
431.0838390522
 30
0.0
 11
142.7608321164
 21
368.5838390522
 31
0.0
  0
LINE
  5
9B
330
1F
100
AcDbEntity
  8
0
  6
Continuous
 62
     7
370
    25
100
AcDbLine
 10
17.7608321164
 20
609.0838390522
 30
0.0
 11
142.7608321164
 21
609.0838390522
 31
0.0
  0
LINE
  5
9C
330
1F
100
AcDbEntity
  8
0
  6
Continuous
 62
     7
370
    25
100
AcDbLine
 10
17.7608321164
 20
253.0838390522
 30
0.0
 11
142.7608321164
 21
253.0838390522
 31
0.0
  0
LINE
  5
9D
330
1F
100
AcDbEntity
  8
0
  6
Continuous
 62
     7
370
    25
100
AcDbLine
 10
258.2608321164
 20
493.5838390522
 30
0.0
 11
258.2608321164
 21
368.5838390522
 31
0.0
  0
LINE
  5
9E
330
1F
100
AcDbEntity
  8
0
  6
Continuous
 62
     7
370
    25
100
AcDbLine
 10
489.9646421209
 20
42.6121701826
 30
0.0
 11
667.9646421209
 21
42.6121701826
 31
0.0
  0
LINE
  5
9F
330
1F
100
AcDbEntity
  8
0
  6
Continuous
 62
     7
370
    25
100
AcDbLine
 10
311.9646421209
 20
42.6121701826
 30
0.0
 11
489.9646421209
 21
42.6121701826
 31
0.0
  0
LINE
  5
A0
330
1F
100
AcDbEntity
  8
0
  6
Continuous
 62
     7
370
    25
100
AcDbLine
 10
489.9646421209
 20
167.6121701826
 30
0.0
 11
311.9646421209
 21
167.6121701826
 31
0.0
  0
LINE
  5
A1
330
1F
100
AcDbEntity
  8
0
  6
Continuous
 62
     7
370
    25
100
AcDbLine
 10
667.9646421209
 20
167.6121701826
 30
0.0
 11
489.9646421209
 21
167.6121701826
 31
0.0
  0
LINE
  5
A2
330
1F
100
AcDbEntity
  8
0
  6
Continuous
 62
     7
370
    25
100
AcDbLine
 10
667.9646421209
 20
167.6121701826
 30
0.0
 11
667.9646421209
 21
42.6121701826
 31
0.0
  0
LINE
  5
A3
330
1F
100
AcDbEntity
  8
0
  6
Continuous
 62
     7
370
    25
100
AcDbLine
 10
311.9646421209
 20
167.6121701826
 30
0.0
 11
311.9646421209
 21
42.6121701826
 31
0.0
  0
LINE
  5
A4
330
1F
100
AcDbEntity
  8
0
  6
Continuous
 62
     7
370
    25
100
AcDbLine
 10
565.8995635601
 20
-255.4545488189
 30
0.0
 11
660.5171102164
 21
-200.8330017865
 31
0.0
  0
LINE
  5
A5
330
1F
100
AcDbEntity
  8
0
  6
Continuous
 62
     7
370
    25
100
AcDbLine
 10
598.0221894267
 20
-92.576893989
 30
0.0
 11
503.4046427703
 21
-147.1984410213
 31
0.0
  0
LINE
  5
A6
330
1F
100
AcDbEntity
  8
0
  6
Continuous
 62
     7
370
    25
100
AcDbLine
 10
503.4046427703
 20
-147.1984410213
 30
0.0
 11
408.787096114
 21
-92.576893989
 31
0.0
  0
LINE
  5
A7
330
1F
100
AcDbEntity
  8
0
  6
Continuous
 62
     7
370
    25
100
AcDbLine
 10
660.5171102164
 20
-237.8975378934
 30
0.0
 11
628.4148020165
 21
-219.36526984
 31
0.0
  0
LINE
  5
A8
330
1F
100
AcDbEntity
  8
0
  6
Continuous
 62
     7
370
    25
100
AcDbLine
 10
346.2921753243
 20
-200.8330017865
 30
0.0
 11
598.0221894267
 21
-346.153645691
 31
0.0
  0
LWPOLYLINE
  5
A9
330
1F
100
AcDbEntity
  8
0
  6
Continuous
 62
     7
370
    25
100
AcDbPolyline
 90
       85
 70
   128
 43
0.0
 10
668.2312334649
 20
-169.1969913685
 10
668.1222889749
 20
-165.771887615
 10
667.7960647667
 20
-162.2401538004
 10
667.2543852183
 20
-158.6215408126
 10
666.5002796215
 20
-154.9362854034
 10
665.5379652408
 20
-151.2049970158
 10
664.3728237284
 20
-147.4485425282
 10
663.0113710284
 20
-143.6879295576
 10
661.4612209365
 20
-139.9441889774
 10
659.7310425208
 20
-136.2382573034
 10
657.8305116408
 20
-132.5908596089
 10
655.7702568362
 20
-129.0223936212
 10
653.5617998875
 20
-125.5528156497
 10
651.2174913818
 20
-122.2015289818
 10
648.7504416432
 20
-118.9872753719
 10
646.1744474147
 20
-115.92803023
 10
643.5039147008
 20
-113.040902096
 10
640.7537782037
 20
-110.3420369614
 10
637.9394178023
 20
-107.8465279749
 10
635.0765725416
 20
-105.568331035
 10
632.1812526135
 20
-103.5201867431
 10
629.2696498216
 20
-101.7135491528
 10
626.3580470296
 20
-100.1585217146
 10
623.4627271015
 20
-98.8638007724
 10
620.5998818408
 20
-97.8366269311
 10
617.7855214394
 20
-97.0827445634
 10
615.0353849423
 20
-96.6063696853
 10
612.3648522284
 20
-96.4101663784
 10
609.7888579999
 20
-96.4952318912
 10
607.3218082613
 20
-96.8610905027
 10
604.9774997556
 20
-97.5056961833
 10
602.7690428069
 20
-98.4254440365
 10
600.7087880023
 20
-99.6151904593
 10
598.8082571223
 20
-101.0682819069
 10
597.0780787066
 20
-102.7765921027
 10
595.5279286147
 20
-104.730567483
 10
594.1664759147
 20
-106.9192806249
 10
593.0013344023
 20
-109.3304913567
 10
592.0390200216
 20
-111.9507152099
 10
591.2849144248
 20
-114.7652988299
 10
590.7432348764
 20
-117.7585019233
 10
590.4170106682
 20
-120.9135852844
 10
590.3080661782
 20
-124.212904407
 10
590.4170106682
 20
-127.6380081605
 10
590.7432348764
 20
-131.1697419751
 10
591.2849144248
 20
-134.7883549629
 10
592.0390200216
 20
-138.4736103721
 10
593.0013344023
 20
-142.2048987597
 10
594.1664759147
 20
-145.9613532474
 10
595.5279286147
 20
-149.7219662179
 10
597.0780787066
 20
-153.4657067981
 10
598.8082571223
 20
-157.1716384721
 10
600.7087880023
 20
-160.8190361666
 10
602.7690428069
 20
-164.3875021543
 10
604.9774997556
 20
-167.8570801258
 10
607.3218082613
 20
-171.2083667937
 10
609.7888579999
 20
-174.4226204036
 10
612.3648522284
 20
-177.4818655455
 10
615.0353849423
 20
-180.3689936795
 10
617.7855214394
 20
-183.0678588141
 10
620.5998818408
 20
-185.5633678006
 10
623.4627271015
 20
-187.8415647405
 10
626.3580470296
 20
-189.8897090324
 10
629.2696498216
 20
-191.6963466227
 10
632.1812526135
 20
-193.251374061
 10
635.0765725416
 20
-194.5460950031
 10
637.9394178023
 20
-195.5732688444
 10
640.7537782037
 20
-196.3271512121
 10
643.5039147008
 20
-196.8035260902
 10
646.1744474147
 20
-196.9997293971
 10
648.7504416432
 20
-196.9146638843
 10
651.2174913818
 20
-196.5488052728
 10
653.5617998875
 20
-195.9041995922
 10
655.7702568362
 20
-194.984451739
 10
657.8305116408
 20
-193.7947053162
 10
659.7310425208
 20
-192.3416138686
 10
661.4612209365
 20
-190.6333036728
 10
663.0113710284
 20
-188.6793282925
 10
664.3728237284
 20
-186.4906151506
 10
665.5379652408
 20
-184.0794044188
 10
666.5002796215
 20
-181.4591805656
 10
667.2543852183
 20
-178.6445969456
 10
667.7960647667
 20
-175.6513938522
 10
668.1222889749
 20
-172.4963104911
 10
668.2312334649
 20
-169.1969913685
  0
LWPOLYLINE
  5
AA
330
1F
100
AcDbEntity
  8
0
  6
Continuous
 62
     7
370
    25
100
AcDbPolyline
 90
       90
 70
   128
 43
0.0
 10
673.4638236457
 20
-172.2177013822
 10
673.3537370702
 20
-168.5542785745
 10
673.0240257896
 20
-164.7820035005
 10
672.4763324088
 20
-160.9196694446
 10
671.7133855087
 20
-156.986518361
 10
670.7389860523
 20
-153.0021450104
 10
669.5579884489
 20
-148.9863993406
 10
668.176276369
 20
-144.9592875944
 10
666.6007334327
 20
-140.9408726399
 10
664.8392089156
 20
-136.9511740184
 10
662.9004786444
 20
-133.0100682077
 10
660.7942012756
 20
-129.1371895986
 10
658.5308701772
 20
-125.3518326777
 10
656.1217611509
 20
-121.6728559027
 10
653.5788762566
 20
-118.1185877508
 10
650.9148840191
 20
-114.7067354071
 10
648.1430563135
 20
-111.4542965485
 10
645.2772022462
 20
-108.3774746617
 10
642.3315993579
 20
-105.4915983185
 10
639.3209224941
 20
-102.8110448098
 10
636.2601706953
 20
-100.3491685183
 10
633.1645924733
 20
-98.1182343879
 10
630.0496098428
 20
-96.1293568202
 10
626.9307414908
 20
-94.3924443031
 10
623.8235254624
 20
-92.9161500474
 10
620.7434417516
 20
-91.707828877
 10
617.7058351806
 20
-90.773500587
 10
614.7258389524
 20
-90.1178199541
 10
611.8182992584
 20
-89.744053546
 10
608.997701315
 20
-89.6540634484
 10
606.2780971995
 20
-89.8482979873
 10
603.6730358425
 20
-90.3257894961
 10
601.1954955289
 20
-91.084159136
 10
598.8578192398
 20
-92.1196287476
 10
596.6716531608
 20
-93.4270396735
 10
594.6478886615
 20
-94.9998784581
 10
592.7966080348
 20
-96.8303092978
 10
591.1270342676
 20
-98.9092130781
 10
589.6474850925
 20
-101.2262328051
 10
588.365331549
 20
-103.769825203
 10
587.2869612616
 20
-106.5273182224
 10
586.4177466167
 20
-109.4849741718
 10
585.7620179982
 20
-112.628058158
 10
585.3230422129
 20
-115.9409114948
 10
585.1030062161
 20
-119.4070297134
 10
585.1030062161
 20
-123.0091447871
 10
585.3230422129
 20
-126.72931116
 10
585.7620179982
 20
-130.5489951503
 10
586.4177466167
 20
-134.4491672845
 10
587.2869612616
 20
-138.4103971011
 10
588.365331549
 20
-142.4129499525
 10
589.6474850925
 20
-146.4368853217
 10
591.1270342676
 20
-150.4621561652
 10
592.7966080348
 20
-154.468708786
 10
594.6478886615
 20
-158.4365827405
 10
596.6716531608
 20
-162.3460102804
 10
598.8578192398
 20
-166.1775148341
 10
601.1954955289
 20
-169.9120080389
 10
603.6730358425
 20
-173.5308848373
 10
606.2780971995
 20
-177.0161161672
 10
608.997701315
 20
-180.3503387814
 10
611.8182992584
 20
-183.5169417506
 10
614.7258389524
 20
-186.5001492181
 10
617.7058351806
 20
-189.2850989944
 10
620.7434417516
 20
-191.8579165996
 10
623.8235254624
 20
-194.205784386
 10
626.9307414908
 20
-196.3170053944
 10
630.0496098428
 20
-198.1810616278
 10
633.1645924733
 20
-199.7886664518
 10
636.2601706953
 20
-201.1318108602
 10
639.3209224941
 20
-202.203803375
 10
642.3315993579
 20
-202.9993033834
 10
645.2772022462
 20
-203.5143477445
 10
648.1430563135
 20
-203.7463705331
 10
650.9148840191
 20
-203.6942158233
 10
653.5788762566
 20
-203.3581434473
 10
656.1217611509
 20
-202.7398277008
 10
658.5308701772
 20
-201.8423490017
 10
660.7942012756
 20
-200.6701785437
 10
662.9004786444
 20
-199.2291560211
 10
664.8392089156
 20
-197.5264605357
 10
666.6007334327
 20
-195.5705748307
 10
668.176276369
 20
-193.3712430302
 10
669.5579884489
 20
-190.9394220947
 10
670.7389860523
 20
-188.2872272338
 10
671.7133855087
 20
-185.4278715489
 10
672.4763324088
 20
-182.3756002061
 10
673.0240257896
 20
-179.1456194677
 10
673.3537370702
 20
-175.7540209353
 10
673.4638236457
 20
-172.2177013822
  0
ELLIPSE
  5
AB
330
1F
100
AcDbEntity
  8
0
  6
Continuous
 62
     7
370
    25
100
AcDbEllipse
 10
503.4046427703
 20
-219.36526984
 30
0.0
 11
88.38834764831853
 21
1.136868377216160E-13
 31
0.0
210
0.0
220
0.0
230
1.0
 40
0.5773815452
 41
4.712388980384697
 42
5.49770587972005
  0
LINE
  5
AC
330
1F
100
AcDbEntity
  8
0
  6
Continuous
 62
     7
370
    25
100
AcDbLine
 10
503.4046427703
 20
-147.1984410213
 30
0.0
 11
503.4046427703
 21
-270.3990705828
 31
0.0
  0
LWPOLYLINE
  5
AD
330
1F
100
AcDbEntity
  8
0
  6
Continuous
 62
     7
370
    25
100
AcDbPolyline
 90
       85
 70
   128
 43
0.0
 10
416.5012193625
 20
-124.212904407
 10
416.3922748725
 20
-120.9135852844
 10
416.0660506643
 20
-117.7585019233
 10
415.5243711159
 20
-114.7652988299
 10
414.7702655191
 20
-111.9507152099
 10
413.8079511384
 20
-109.3304913567
 10
412.642809626
 20
-106.9192806249
 10
411.281356926
 20
-104.730567483
 10
409.7312068341
 20
-102.7765921027
 10
408.0010284183
 20
-101.0682819069
 10
406.1004975384
 20
-99.6151904593
 10
404.0402427337
 20
-98.4254440365
 10
401.8317857851
 20
-97.5056961833
 10
399.4874772794
 20
-96.8610905027
 10
397.0204275408
 20
-96.4952318912
 10
394.4444333123
 20
-96.4101663784
 10
391.7739005983
 20
-96.6063696853
 10
389.0237641013
 20
-97.0827445634
 10
386.2094036999
 20
-97.8366269311
 10
383.3465584392
 20
-98.8638007724
 10
380.4512385111
 20
-100.1585217146
 10
377.5396357191
 20
-101.7135491528
 10
374.6280329272
 20
-103.5201867431
 10
371.7327129991
 20
-105.568331035
 10
368.8698677384
 20
-107.8465279749
 10
366.055507337
 20
-110.3420369614
 10
363.3053708399
 20
-113.040902096
 10
360.634838126
 20
-115.92803023
 10
358.0588438975
 20
-118.9872753719
 10
355.5917941589
 20
-122.2015289818
 10
353.2474856532
 20
-125.5528156497
 10
351.0390287045
 20
-129.0223936212
 10
348.9787738999
 20
-132.5908596089
 10
347.0782430199
 20
-136.2382573034
 10
345.3480646042
 20
-139.9441889774
 10
343.7979145123
 20
-143.6879295576
 10
342.4364618123
 20
-147.4485425282
 10
341.2713202999
 20
-151.2049970158
 10
340.3090059192
 20
-154.9362854034
 10
339.5549003224
 20
-158.6215408126
 10
339.013220774
 20
-162.2401538004
 10
338.6869965658
 20
-165.771887615
 10
338.5780520758
 20
-169.1969913685
 10
338.6869965658
 20
-172.4963104911
 10
339.013220774
 20
-175.6513938522
 10
339.5549003224
 20
-178.6445969456
 10
340.3090059192
 20
-181.4591805656
 10
341.2713202999
 20
-184.0794044188
 10
342.4364618123
 20
-186.4906151506
 10
343.7979145123
 20
-188.6793282925
 10
345.3480646042
 20
-190.6333036728
 10
347.0782430199
 20
-192.3416138686
 10
348.9787738999
 20
-193.7947053162
 10
351.0390287045
 20
-194.984451739
 10
353.2474856532
 20
-195.9041995922
 10
355.5917941589
 20
-196.5488052728
 10
358.0588438975
 20
-196.9146638843
 10
360.634838126
 20
-196.9997293971
 10
363.3053708399
 20
-196.8035260902
 10
366.055507337
 20
-196.3271512121
 10
368.8698677384
 20
-195.5732688444
 10
371.7327129991
 20
-194.5460950031
 10
374.6280329272
 20
-193.251374061
 10
377.5396357191
 20
-191.6963466227
 10
380.4512385111
 20
-189.8897090324
 10
383.3465584392
 20
-187.8415647405
 10
386.2094036999
 20
-185.5633678006
 10
389.0237641013
 20
-183.0678588141
 10
391.7739005983
 20
-180.3689936795
 10
394.4444333123
 20
-177.4818655455
 10
397.0204275408
 20
-174.4226204036
 10
399.4874772794
 20
-171.2083667937
 10
401.8317857851
 20
-167.8570801258
 10
404.0402427337
 20
-164.3875021543
 10
406.1004975384
 20
-160.8190361666
 10
408.0010284183
 20
-157.1716384721
 10
409.7312068341
 20
-153.4657067981
 10
411.281356926
 20
-149.7219662179
 10
412.642809626
 20
-145.9613532474
 10
413.8079511384
 20
-142.2048987597
 10
414.7702655191
 20
-138.4736103721
 10
415.5243711159
 20
-134.7883549629
 10
416.0660506643
 20
-131.1697419751
 10
416.3922748725
 20
-127.6380081605
 10
416.5012193625
 20
-124.212904407
  0
LWPOLYLINE
  5
AE
330
1F
100
AcDbEntity
  8
0
  6
Continuous
 62
     7
370
    25
100
AcDbPolyline
 90
       90
 70
   128
 43
0.0
 10
421.7338095433
 20
-121.1921943933
 10
421.6237229678
 20
-117.6558748402
 10
421.2940116872
 20
-114.2642763078
 10
420.7463183064
 20
-111.0342955695
 10
419.9833714062
 20
-107.9820242266
 10
419.0089719499
 20
-105.1226685417
 10
417.8279743465
 20
-102.4704736808
 10
416.4462622666
 20
-100.0386527453
 10
414.8707193303
 20
-97.8393209448
 10
413.1091948132
 20
-95.8834352398
 10
411.1704645419
 20
-94.1807397544
 10
409.0641871732
 20
-92.7397172318
 10
406.8008560748
 20
-91.5675467738
 10
404.3917470485
 20
-90.6700680747
 10
401.8488621542
 20
-90.0517523282
 10
399.1848699167
 20
-89.7156799522
 10
396.4130422111
 20
-89.6635252424
 10
393.5471881438
 20
-89.895548031
 10
390.6015852555
 20
-90.4105923921
 10
387.5909083916
 20
-91.2060924005
 10
384.5301565929
 20
-92.2780849153
 10
381.4345783709
 20
-93.6212293237
 10
378.3195957404
 20
-95.2288341478
 10
375.2007273884
 20
-97.0928903812
 10
372.09351136
 20
-99.2041113895
 10
369.0134276492
 20
-101.5519791759
 10
365.9758210782
 20
-104.1247967812
 10
362.99582485
 20
-106.9097465574
 10
360.088285156
 20
-109.8929540249
 10
357.2676872126
 20
-113.0595569941
 10
354.548083097
 20
-116.3937796083
 10
351.9430217401
 20
-119.8790109382
 10
349.4654814265
 20
-123.4978877367
 10
347.1278051373
 20
-127.2323809414
 10
344.9416390584
 20
-131.0638854951
 10
342.9178745591
 20
-134.973313035
 10
341.0665939324
 20
-138.9411869895
 10
339.3970201652
 20
-142.9477396103
 10
337.9174709901
 20
-146.9730104538
 10
336.6353174466
 20
-150.996945823
 10
335.5569471591
 20
-154.9994986744
 10
334.6877325143
 20
-158.960728491
 10
334.0320038958
 20
-162.8609006252
 10
333.5930281104
 20
-166.6805846155
 10
333.3729921137
 20
-170.4007509884
 10
333.3729921137
 20
-174.0028660622
 10
333.5930281105
 20
-177.4689842807
 10
334.0320038958
 20
-180.7818376175
 10
334.6877325143
 20
-183.9249216037
 10
335.5569471591
 20
-186.8825775531
 10
336.6353174466
 20
-189.6400705725
 10
337.9174709901
 20
-192.1836629704
 10
339.3970201652
 20
-194.5006826974
 10
341.0665939324
 20
-196.5795864777
 10
342.9178745591
 20
-198.4100173174
 10
344.9416390584
 20
-199.9828561021
 10
347.1278051373
 20
-201.2902670279
 10
349.4654814265
 20
-202.3257366396
 10
351.9430217401
 20
-203.0841062794
 10
354.548083097
 20
-203.5615977882
 10
357.2676872126
 20
-203.7558323271
 10
360.088285156
 20
-203.6658422295
 10
362.99582485
 20
-203.2920758214
 10
365.9758210782
 20
-202.6363951885
 10
369.0134276492
 20
-201.7020668985
 10
372.09351136
 20
-200.4937457281
 10
375.2007273884
 20
-199.0174514724
 10
378.3195957404
 20
-197.2805389554
 10
381.4345783709
 20
-195.2916613876
 10
384.5301565929
 20
-193.0607272572
 10
387.5909083916
 20
-190.5988509657
 10
390.6015852555
 20
-187.918297457
 10
393.5471881438
 20
-185.0324211139
 10
396.4130422111
 20
-181.955599227
 10
399.1848699167
 20
-178.7031603684
 10
401.8488621542
 20
-175.2913080247
 10
404.3917470485
 20
-171.7370398728
 10
406.8008560748
 20
-168.0580630978
 10
409.0641871732
 20
-164.2727061769
 10
411.1704645419
 20
-160.3998275678
 10
413.1091948132
 20
-156.4587217571
 10
414.8707193303
 20
-152.4690231356
 10
416.4462622666
 20
-148.4506081811
 10
417.8279743465
 20
-144.4234964349
 10
419.0089719499
 20
-140.4077507651
 10
419.9833714062
 20
-136.4233774145
 10
420.7463183064
 20
-132.4902263309
 10
421.2940116872
 20
-128.627892275
 10
421.6237229678
 20
-124.855617201
 10
421.7338095433
 20
-121.1921943933
  0
LWPOLYLINE
  5
AF
330
1F
100
AcDbEntity
  8
0
  6
Continuous
 62
     7
370
    25
100
AcDbPolyline
 90
       13
 70
   128
 43
0.0
 10
673.4638236457
 20
-266.5128382977
 10
673.3537370702
 20
-262.9765187447
 10
673.0240257896
 20
-259.5849202123
 10
672.4763324088
 20
-256.3549394739
 10
671.7133855087
 20
-253.3026681311
 10
670.7389860523
 20
-250.4433124461
 10
669.5579884489
 20
-247.7911175852
 10
668.176276369
 20
-245.3592966497
 10
666.6007334327
 20
-243.1599648493
 10
664.8392089156
 20
-241.2040791442
 10
662.9004786444
 20
-239.5013836588
 10
660.7942012756
 20
-238.0603611362
 10
660.5171102164
 20
-237.8975378934
  0
LWPOLYLINE
  5
B0
330
1F
100
AcDbEntity
  8
0
  6
Continuous
 62
     7
370
    25
100
AcDbPolyline
 90
       35
 70
   128
 43
0.0
 10
598.0221894267
 20
-346.153645691
 10
598.8578192398
 20
-346.6109109324
 10
601.1954955289
 20
-347.646380544
 10
603.6730358425
 20
-348.4047501839
 10
606.2780971995
 20
-348.8822416926
 10
608.997701315
 20
-349.0764762315
 10
611.8182992584
 20
-348.9864861339
 10
614.7258389524
 20
-348.6127197259
 10
617.7058351806
 20
-347.9570390929
 10
620.7434417516
 20
-347.022710803
 10
623.8235254624
 20
-345.8143896325
 10
626.9307414908
 20
-344.3380953769
 10
630.0496098428
 20
-342.6011828598
 10
633.1645924733
 20
-340.612305292
 10
636.2601706953
 20
-338.3813711616
 10
639.3209224941
 20
-335.9194948701
 10
642.3315993579
 20
-333.2389413614
 10
645.2772022462
 20
-330.3530650183
 10
648.1430563135
 20
-327.2762431315
 10
650.9148840191
 20
-324.0238042728
 10
653.5788762566
 20
-320.6119519292
 10
656.1217611509
 20
-317.0576837773
 10
658.5308701772
 20
-313.3787070022
 10
660.7942012756
 20
-309.5933500813
 10
662.9004786444
 20
-305.7204714723
 10
664.8392089156
 20
-301.7793656615
 10
666.6007334327
 20
-297.78966704
 10
668.176276369
 20
-293.7712520856
 10
669.5579884489
 20
-289.7441403394
 10
670.7389860523
 20
-285.7283946695
 10
671.7133855087
 20
-281.744021319
 10
672.4763324088
 20
-277.8108702353
 10
673.0240257896
 20
-273.9485361795
 10
673.3537370702
 20
-270.1762611054
 10
673.4638236457
 20
-266.5128382977
  0
LINE
  5
B1
330
1F
100
AcDbEntity
  8
0
  6
Continuous
 62
     7
370
    25
100
AcDbLine
 10
-268.609580304
 20
167.6121701826
 30
0.0
 11
-446.609580304
 21
167.6121701826
 31
0.0
  0
LINE
  5
B2
330
1F
100
AcDbEntity
  8
0
  6
Continuous
 62
     7
370
    25
100
AcDbLine
 10
-90.609580304
 20
167.6121701826
 30
0.0
 11
-268.609580304
 21
167.6121701826
 31
0.0
  0
LINE
  5
B3
330
1F
100
AcDbEntity
  8
0
  6
Continuous
 62
     7
370
    25
100
AcDbLine
 10
-268.609580304
 20
42.6121701826
 30
0.0
 11
-90.609580304
 21
42.6121701826
 31
0.0
  0
LINE
  5
B4
330
1F
100
AcDbEntity
  8
0
  6
Continuous
 62
     7
370
    25
100
AcDbLine
 10
-446.609580304
 20
42.6121701826
 30
0.0
 11
-268.609580304
 21
42.6121701826
 31
0.0
  0
CIRCLE
  5
B5
330
1F
100
AcDbEntity
  8
0
  6
Continuous
 62
     7
370
    25
100
AcDbCircle
 10
-268.609580304
 20
105.1121701826
 30
0.0
 40
55.09999999999999
  0
CIRCLE
  5
B6
330
1F
100
AcDbEntity
  8
0
  6
Continuous
 62
     7
370
    25
100
AcDbCircle
 10
-268.609580304
 20
105.1121701826
 30
0.0
 40
62.5
  0
LINE
  5
B7
330
1F
100
AcDbEntity
  8
0
  6
Continuous
 62
     7
370
    25
100
AcDbLine
 10
-446.609580304
 20
105.1121701826
 30
0.0
 11
-446.609580304
 21
167.6121701826
 31
0.0
  0
LINE
  5
B8
330
1F
100
AcDbEntity
  8
0
  6
Continuous
 62
     7
370
    25
100
AcDbLine
 10
-446.609580304
 20
42.6121701826
 30
0.0
 11
-446.609580304
 21
105.1121701826
 31
0.0
  0
LINE
  5
B9
330
1F
100
AcDbEntity
  8
0
  6
Continuous
 62
     7
370
    25
100
AcDbLine
 10
-90.609580304
 20
105.1121701826
 30
0.0
 11
-90.609580304
 21
167.6121701826
 31
0.0
  0
LINE
  5
BA
330
1F
100
AcDbEntity
  8
0
  6
Continuous
 62
     7
370
    25
100
AcDbLine
 10
-90.609580304
 20
42.6121701826
 30
0.0
 11
-90.609580304
 21
105.1121701826
 31
0.0
  0
INSERT
  5
C6
330
1F
100
AcDbEntity
  8
FORMAT
100
AcDbBlockReference
  2
SW_CENTERMARKSYMBOL_1
 10
-268.609580304
 20
105.1121701826
 30
0.0
  0
LINE
  5
C7
330
1F
100
AcDbEntity
  8
0
  6
Continuous
 62
     7
370
    25
100
AcDbLine
 10
17.7608321164
 20
-28.4256502171
 30
0.0
 11
17.7608321164
 21
-384.4256502171
 31
0.0
  0
LINE
  5
C8
330
1F
100
AcDbEntity
  8
0
  6
Continuous
 62
     7
370
    25
100
AcDbLine
 10
142.7608321164
 20
-143.9256502171
 30
0.0
 11
142.7608321164
 21
-28.4256502171
 31
0.0
  0
LINE
  5
C9
330
1F
100
AcDbEntity
  8
0
  6
Continuous
 62
     7
370
    25
100
AcDbLine
 10
142.7608321164
 20
-384.4256502171
 30
0.0
 11
142.7608321164
 21
-268.9256502171
 31
0.0
  0
LINE
  5
CA
330
1F
100
AcDbEntity
  8
0
  6
Continuous
 62
     7
370
    25
100
AcDbLine
 10
142.7608321164
 20
-268.9256502171
 30
0.0
 11
258.2608321164
 21
-268.9256502171
 31
0.0
  0
LINE
  5
CB
330
1F
100
AcDbEntity
  8
0
  6
Continuous
 62
     7
370
    25
100
AcDbLine
 10
258.2608321164
 20
-143.9256502171
 30
0.0
 11
142.7608321164
 21
-143.9256502171
 31
0.0
  0
LINE
  5
CC
330
1F
100
AcDbEntity
  8
0
  6
Continuous
 62
     7
370
    25
100
AcDbLine
 10
80.2608321164
 20
-206.4256502171
 30
0.0
 11
142.7608321164
 21
-268.9256502171
 31
0.0
  0
LINE
  5
CD
330
1F
100
AcDbEntity
  8
0
  6
Continuous
 62
     7
370
    25
100
AcDbLine
 10
142.7608321164
 20
-143.9256502171
 30
0.0
 11
80.2608321164
 21
-206.4256502171
 31
0.0
  0
LINE
  5
CE
330
1F
100
AcDbEntity
  8
0
  6
Continuous
 62
     7
370
    25
100
AcDbLine
 10
142.7608321164
 20
-384.4256502171
 30
0.0
 11
17.7608321164
 21
-384.4256502171
 31
0.0
  0
LINE
  5
CF
330
1F
100
AcDbEntity
  8
0
  6
Continuous
 62
     7
370
    25
100
AcDbLine
 10
142.7608321164
 20
-28.4256502171
 30
0.0
 11
17.7608321164
 21
-28.4256502171
 31
0.0
  0
LINE
  5
D0
330
1F
100
AcDbEntity
  8
0
  6
Continuous
 62
     7
370
    25
100
AcDbLine
 10
258.2608321164
 20
-143.9256502171
 30
0.0
 11
258.2608321164
 21
-268.9256502171
 31
0.0
  0
ENDSEC
  0
SECTION
  2
OBJECTS
  0
DICTIONARY
  5
C
330
0
100
AcDbDictionary
281
     1
  3
ACAD_GROUP
350
D
  3
ACAD_LAYOUT
350
1A
  3
ACAD_MLINESTYLE
350
17
  3
ACAD_PLOTSETTINGS
350
19
  3
ACAD_PLOTSTYLENAME
350
E
  3
ACAD_SCALELIST
350
47
  3
DWGPROPS
350
D1
  0
DICTIONARY
  5
D
102
{ACAD_REACTORS
330
C
102
}
330
C
100
AcDbDictionary
281
     1
  0
DICTIONARY
  5
1A
102
{ACAD_REACTORS
330
C
102
}
330
C
100
AcDbDictionary
281
     1
  3
Layout1
350
1E
  3
Layout2
350
26
  3
Model
350
22
  0
DICTIONARY
  5
17
102
{ACAD_REACTORS
330
C
102
}
330
C
100
AcDbDictionary
281
     1
  3
Standard
350
18
  0
DICTIONARY
  5
19
102
{ACAD_REACTORS
330
C
102
}
330
C
100
AcDbDictionary
281
     1
  0
ACDBDICTIONARYWDFLT
  5
E
102
{ACAD_REACTORS
330
C
102
}
330
C
100
AcDbDictionary
281
     1
  3
Normal
350
F
100
AcDbDictionaryWithDefault
340
F
  0
DICTIONARY
  5
47
102
{ACAD_REACTORS
330
C
102
}
330
C
100
AcDbDictionary
281
     1
  3
A0
350
48
  3
A1
350
49
  3
A2
350
4A
  3
A3
350
4B
  3
A4
350
4C
  3
A5
350
4D
  3
A6
350
4E
  3
A7
350
4F
  3
A8
350
50
  3
A9
350
51
  3
B0
350
52
  3
B1
350
53
  3
B2
350
54
  3
B3
350
55
  3
B4
350
56
  3
B5
350
57
  3
B6
350
58
  3
B7
350
59
  3
B8
350
5A
  3
B9
350
5B
  3
C0
350
5C
  3
C1
350
5D
  3
C2
350
5E
  3
C3
350
5F
  3
C4
350
60
  3
C5
350
61
  3
C6
350
62
  3
C7
350
63
  3
C8
350
64
  3
C9
350
65
  3
D0
350
66
  3
D1
350
67
  3
D2
350
68
  0
XRECORD
  5
D1
102
{ACAD_REACTORS
330
C
102
}
330
C
100
AcDbXrecord
280
     1
  1
DWGPROPS COOKIE
  2

  3

  4

  6

  7

  8
b.kav
  9

300
=
301
=
302
=
303
=
304
=
305
=
306
=
307
=
308
=
309
=
 40
0.0
 41
2459935.5755186
 42
2459935.575518785
  1

 90
        0
  0
LAYOUT
  5
1E
102
{ACAD_REACTORS
330
1A
102
}
330
1A
100
AcDbPlotSettings
  1

  2
none_device
  4

  6

 40
0.0
 41
0.0
 42
0.0
 43
0.0
 44
0.0
 45
0.0
 46
0.0
 47
0.0
 48
0.0
 49
0.0
140
0.0
141
0.0
142
1.0
143
1.0
 70
   688
 72
     1
 73
     0
 74
     5
  7

 75
    16
147
1.0
148
0.0
149
0.0
100
AcDbLayout
  1
Layout1
 70
     1
 71
     1
 10
0.0
 20
0.0
 11
420.0
 21
297.0
 12
0.0
 22
0.0
 32
0.0
 14
1.0000000000E+20
 24
1.0000000000E+20
 34
1.0000000000E+20
 15
-1.0000000000E+20
 25
-1.0000000000E+20
 35
-1.0000000000E+20
146
0.0
 13
0.0
 23
0.0
 33
0.0
 16
1.0
 26
0.0
 36
0.0
 17
0.0
 27
1.0
 37
0.0
 76
     0
330
1B
  0
LAYOUT
  5
26
102
{ACAD_REACTORS
330
1A
102
}
330
1A
100
AcDbPlotSettings
  1

  2
none_device
  4

  6

 40
0.0
 41
0.0
 42
0.0
 43
0.0
 44
0.0
 45
0.0
 46
0.0
 47
0.0
 48
0.0
 49
0.0
140
0.0
141
0.0
142
1.0
143
1.0
 70
   688
 72
     1
 73
     0
 74
     5
  7

 75
    16
147
1.0
148
0.0
149
0.0
100
AcDbLayout
  1
Layout2
 70
     1
 71
     2
 10
0.0
 20
0.0
 11
0.0
 21
0.0
 12
0.0
 22
0.0
 32
0.0
 14
0.0
 24
0.0
 34
0.0
 15
0.0
 25
0.0
 35
0.0
146
0.0
 13
0.0
 23
0.0
 33
0.0
 16
1.0
 26
0.0
 36
0.0
 17
0.0
 27
1.0
 37
0.0
 76
     0
330
23
  0
LAYOUT
  5
22
102
{ACAD_REACTORS
330
1A
102
}
330
1A
100
AcDbPlotSettings
  1

  2
none_device
  4
Letter_(8.50_x_11.00_Inches)
  6

 40
6.35
 41
6.35
 42
6.35000508
 43
6.35000508
 44
215.9
 45
279.4
 46
0.0
 47
0.0
 48
0.0
 49
0.0
140
0.0
141
0.0
142
1.0
143
1.0
 70
  1712
 72
     1
 73
     0
 74
     0
  7

 75
     0
147
1.0
148
0.0
149
0.0
100
AcDbLayout
  1
Model
 70
     1
 71
     0
 10
0.0
 20
0.0
 11
279.4
 21
215.9
 12
0.0
 22
0.0
 32
0.0
 14
0.0
 24
0.0
 34
0.0
 15
279.4
 25
215.9
 35
0.0
146
0.0
 13
0.0
 23
0.0
 33
0.0
 16
1.0
 26
0.0
 36
0.0
 17
0.0
 27
1.0
 37
0.0
 76
     0
330
1F
331
29
  0
MLINESTYLE
  5
18
102
{ACAD_REACTORS
330
17
102
}
330
17
100
AcDbMlineStyle
  2
Standard
 70
     0
  3

 62
   256
 51
90.0
 52
90.0
 71
     2
 49
0.5
 62
   256
  6
BYLAYER
 49
-0.5
 62
   256
  6
BYLAYER
  0
ACDBPLACEHOLDER
  5
F
102
{ACAD_REACTORS
330
E
102
}
330
E
  0
SCALE
  5
48
102
{ACAD_REACTORS
330
47
102
}
330
47
100
AcDbScale
 70
     0
300
1:1
140
1.0
141
1.0
290
     1
  0
SCALE
  5
49
102
{ACAD_REACTORS
330
47
102
}
330
47
100
AcDbScale
 70
     0
300
1:2
140
1.0
141
2.0
290
     0
  0
SCALE
  5
4A
102
{ACAD_REACTORS
330
47
102
}
330
47
100
AcDbScale
 70
     0
300
1:4
140
1.0
141
4.0
290
     0
  0
SCALE
  5
4B
102
{ACAD_REACTORS
330
47
102
}
330
47
100
AcDbScale
 70
     0
300
1:5
140
1.0
141
5.0
290
     0
  0
SCALE
  5
4C
102
{ACAD_REACTORS
330
47
102
}
330
47
100
AcDbScale
 70
     0
300
1:8
140
1.0
141
8.0
290
     0
  0
SCALE
  5
4D
102
{ACAD_REACTORS
330
47
102
}
330
47
100
AcDbScale
 70
     0
300
1:10
140
1.0
141
10.0
290
     0
  0
SCALE
  5
4E
102
{ACAD_REACTORS
330
47
102
}
330
47
100
AcDbScale
 70
     0
300
1:16
140
1.0
141
16.0
290
     0
  0
SCALE
  5
4F
102
{ACAD_REACTORS
330
47
102
}
330
47
100
AcDbScale
 70
     0
300
1:20
140
1.0
141
20.0
290
     0
  0
SCALE
  5
50
102
{ACAD_REACTORS
330
47
102
}
330
47
100
AcDbScale
 70
     0
300
1:30
140
1.0
141
30.0
290
     0
  0
SCALE
  5
51
102
{ACAD_REACTORS
330
47
102
}
330
47
100
AcDbScale
 70
     0
300
1:40
140
1.0
141
40.0
290
     0
  0
SCALE
  5
52
102
{ACAD_REACTORS
330
47
102
}
330
47
100
AcDbScale
 70
     0
300
1:50
140
1.0
141
50.0
290
     0
  0
SCALE
  5
53
102
{ACAD_REACTORS
330
47
102
}
330
47
100
AcDbScale
 70
     0
300
1:100
140
1.0
141
100.0
290
     0
  0
SCALE
  5
54
102
{ACAD_REACTORS
330
47
102
}
330
47
100
AcDbScale
 70
     0
300
2:1
140
2.0
141
1.0
290
     0
  0
SCALE
  5
55
102
{ACAD_REACTORS
330
47
102
}
330
47
100
AcDbScale
 70
     0
300
4:1
140
4.0
141
1.0
290
     0
  0
SCALE
  5
56
102
{ACAD_REACTORS
330
47
102
}
330
47
100
AcDbScale
 70
     0
300
8:1
140
8.0
141
1.0
290
     0
  0
SCALE
  5
57
102
{ACAD_REACTORS
330
47
102
}
330
47
100
AcDbScale
 70
     0
300
10:1
140
10.0
141
1.0
290
     0
  0
SCALE
  5
58
102
{ACAD_REACTORS
330
47
102
}
330
47
100
AcDbScale
 70
     0
300
100:1
140
100.0
141
1.0
290
     0
  0
SCALE
  5
59
102
{ACAD_REACTORS
330
47
102
}
330
47
100
AcDbScale
 70
     0
300
1/128" = 1'-0"
140
0.0078125
141
12.0
290
     0
  0
SCALE
  5
5A
102
{ACAD_REACTORS
330
47
102
}
330
47
100
AcDbScale
 70
     0
300
1/64" = 1'-0"
140
0.015625
141
12.0
290
     0
  0
SCALE
  5
5B
102
{ACAD_REACTORS
330
47
102
}
330
47
100
AcDbScale
 70
     0
300
1/32" = 1'-0"
140
0.03125
141
12.0
290
     0
  0
SCALE
  5
5C
102
{ACAD_REACTORS
330
47
102
}
330
47
100
AcDbScale
 70
     0
300
1/16" = 1'-0"
140
0.0625
141
12.0
290
     0
  0
SCALE
  5
5D
102
{ACAD_REACTORS
330
47
102
}
330
47
100
AcDbScale
 70
     0
300
3/32" = 1'-0"
140
0.09375
141
12.0
290
     0
  0
SCALE
  5
5E
102
{ACAD_REACTORS
330
47
102
}
330
47
100
AcDbScale
 70
     0
300
1/8" = 1'-0"
140
0.125
141
12.0
290
     0
  0
SCALE
  5
5F
102
{ACAD_REACTORS
330
47
102
}
330
47
100
AcDbScale
 70
     0
300
3/16" = 1'-0"
140
0.1875
141
12.0
290
     0
  0
SCALE
  5
60
102
{ACAD_REACTORS
330
47
102
}
330
47
100
AcDbScale
 70
     0
300
1/4" = 1'-0"
140
0.25
141
12.0
290
     0
  0
SCALE
  5
61
102
{ACAD_REACTORS
330
47
102
}
330
47
100
AcDbScale
 70
     0
300
3/8" = 1'-0"
140
0.375
141
12.0
290
     0
  0
SCALE
  5
62
102
{ACAD_REACTORS
330
47
102
}
330
47
100
AcDbScale
 70
     0
300
1/2" = 1'-0"
140
0.5
141
12.0
290
     0
  0
SCALE
  5
63
102
{ACAD_REACTORS
330
47
102
}
330
47
100
AcDbScale
 70
     0
300
3/4" = 1'-0"
140
0.75
141
12.0
290
     0
  0
SCALE
  5
64
102
{ACAD_REACTORS
330
47
102
}
330
47
100
AcDbScale
 70
     0
300
1" = 1'-0"
140
1.0
141
12.0
290
     0
  0
SCALE
  5
65
102
{ACAD_REACTORS
330
47
102
}
330
47
100
AcDbScale
 70
     0
300
1-1/2" = 1'-0"
140
1.5
141
12.0
290
     0
  0
SCALE
  5
66
102
{ACAD_REACTORS
330
47
102
}
330
47
100
AcDbScale
 70
     0
300
3" = 1'-0"
140
3.0
141
12.0
290
     0
  0
SCALE
  5
67
102
{ACAD_REACTORS
330
47
102
}
330
47
100
AcDbScale
 70
     0
300
6" = 1'-0"
140
6.0
141
12.0
290
     0
  0
SCALE
  5
68
102
{ACAD_REACTORS
330
47
102
}
330
47
100
AcDbScale
 70
     0
300
1'-0" = 1'-0"
140
12.0
141
12.0
290
     0
  0
ENDSEC
  0
EOF
